Chitarra/Sweep-picking

Indice del libro

Edit-clear mirrored.svgChe cos'è lo sweep picking, o economy picking, o pennata continuaModifica

Lo Sweep-picking, dall'inglese plettrare spazzolando, tecnica che può essere chiamata anche pennata continua (o consecutiva), è una tecnica che conferisce grandi prestazioni nei fraseggi veloci (è chiamata anche economy picking), diversamente dalla pennata alternata.

Icon toolsTecnica: come eseguire lo sweep pickingModifica

Consiste nel pizzicare, una dopo l'altra, più corde vicine tra loro con una pennata "continua", cioè o completamente ascendente o completamente discendente.

 

Come ricavare una frase in Sweep-picking da uno spartitoModifica

Osserviamone un esempio:

 

Questa frase, in via del tutto intuitiva, potrebbe essere suonata in questo modo:

e||--1----0---------0----|--2----3----5----3----|--2----0--------------|
B||------------3---------|----------------------|------------3----2----|
G||----------------------|----------------------|----------------------|
D||----------------------|----------------------|----------------------|
A||----------------------|----------------------|----------------------|
E||----------------------|----------------------|----------------------|

----------------------|-------0--------------|----------------------||
--0---------0----2----|--3---------3----2----|--0-------------------||
-------2--------------|----------------------|-------2----0---------||
----------------------|----------------------|-----------------4----||
----------------------|----------------------|----------------------||
----------------------|----------------------|----------------------||


Seppure sia corretta, non risulta molto agevole eseguire il brano a velocità elevate. Quindi, con un'analisi più approfondita, cerchiamo di trascrivere il brano in modo tale che ogni nota provenga da una corda diversa; in modo da rendere possibile lo Sweep-picking.

e||--1-------------------|--2---------5---------|--2-------------------|
B||-------5---------5----|-------8---------8----|-------5---------2----|
G||------------7---------|----------------------|------------7---------|
D||----------------------|----------------------|----------------------|
A||----------------------|----------------------|----------------------|
E||----------------------|----------------------|----------------------|
                                                                      
----------------------|----------------------|----------------------||
-----------------2----|-------5---------2----|----------------------||
--4---------4---------|--7---------7---------|--4---------0---------||
-------7--------------|----------------------|-------7--------------||
----------------------|----------------------|-----------------9----||
----------------------|----------------------|----------------------||


Nota: Questo tabulato ha il solo fine di illustrare come sia possibile adattare una frase all'esecuzione in Sweep-picking, con il risultato che non sia la soluzione più performante. Infatti sarebbe opportuno eseguire alcune note utilizzando le tecniche Hammer on e Pull off, in modo da non impegnare la pennata a suonare alcune note e allo stesso tempo a evitare grossi spostamenti della mano sinistra lungo la tastiera.

Inkscape icons free-hand-draw.svgEsercitarsi con lo sweep pickingModifica

Non sono presenti notazioni su tabulato che indichino di eseguire una frase in Sweep-picking. L'unica informazione ci è data dalla vicinanza della disposizione dei numeri nel rigo musicale e la disposizione di ciascuna nota che favorisca l'esecuzione della tecnica.
Quindi sta all'eseperienza del musicista, riconoscere questa informazione "nascosta".

  Esercizio 1Modifica

In questo esercizio troviamo una frase da eseguire con la tecnica Sweep-picking, utilizzando una singola pennata ascendente.

      D    U   U   U
e||---15--12--------------------||
B||-----------13----------------||
G||---------------12------------||
D||-----------------------------||
A||-----------------------------||
E||-----------------------------||

U=up ( plettrata all' insù ) D=down ( plettrata all' ingiù )

  Esercizio 2Modifica

In questo esercizio troviamo una frase da eseguire con la tecnica Sweep-picking, utilizzando una singola pennata discendente.

     D   D    D   U
e||-----------9---14----||
B||------12-----------O-||
G||--10-----------------||
D||---------------------||
A||-------------------O-||
E||---------------------||

  Esercizio 3Modifica

In questo esercizio troviamo una frase da eseguire con la tecnica Sweep-picking con pennata mista (discendente e ascendente), in cui sono presenti dei passaggi in Hammer on e Pull off.

      D  H   D   D   D    H  P    U  U   U   P 
e||------------------12--15--12-----------------||
B||--------------12--------------12-----------o-||
G||----------12----------------------12---------||
D||--12--14------------------------------14--12-||
A||-------------------------------------------o-||
E||---------------------------------------------||

  Esercizio 4Modifica

In questo esercizio troviamo una frase da eseguire con la tecnica Sweep-picking con pennata mista (discendente e ascendente), in cui sono presenti dei passaggi in Hammer on e Pull off.

     D   D   D  D  H   P  H  P U  U   U  U  U  P
e||-------------8--12--8--13--8------------------------||
B||---------10-------------------10------------------o-||
G||------9---------------------------9-----------------||
D||--10---------------------------------10-------------||
A||-----------------------------------------12--7----o-||
E||----------------------------------------------------||

  Esercizio 5Modifica

In questo esercizio troviamo una frase da eseguire con la tecnica Sweep-picking con pennata mista (discendente e ascendente), in cui sono presenti dei passaggi in Hammer on e Pull off.

     D   D H     U   U P     D   D H     U   U P     D   D   D  D  H  P  U U  U
e||-------------------------------------------------------------12--17--12---------||
B||----------------------------------------------------------14------------14----o-||
G||--------------16----------------------14--------------14-------------------14---||
D||------11--14------14--11------11--14------14--11--------------------------------||
A||--12----------------------12----------------------12--------------------------o-||
E||--------------------------------------------------------------------------------||

  Esercizio 6Modifica

 

  Esercizio 7Modifica

 

  Esercizio 8Modifica

 

  Esercizio 9Modifica

 

  Esercizio 10Modifica

 


Esercizio 11: The House of the rising sunModifica

The house of the rising sun degli Animals è un buon banco di prova per mettere in pratica su una canzone lo sweep picking.


  Am            C             D             F
e|---^0--0-----|---^0--0-----|---^2--2-----|---^1--1------|
B|---^1----1---|---^1----1---|---^3----3---|---^1----1----|
G|---^2------2-|---^0------0-|---^2------2-|---^2------2--|
D|---^2--------|---^2--------|-0-----------|-3------------|
A|-0-----------|-3-----------|-------------|--------------|
E|-------------|-------------|-------------|--------------|
There is    a   house     in  New       Or-Leans      They 

  Am            C             E/H           E(7)
|---^0--0-----|---^0--0-----|---^0--0-----|---^0--0------|
|---^1----1---|---^1----1---|---^0----0---|---^0----0----|
|---^2------2-|---^0------0-|---^1------1-|---^1------1--|
|---^2--------|---^2--------|---^2--------|---^2---------|
|-0-----------|-3-----------|-2-----------|---^2---------|
|-------------|-------------|-------------|-0------------|
 call      the  Ri-     sing Sun                  And it's

  Am            C             D             F
|---^0--0-----|---^0--0-----|---^2--2-----|---^1--1------|
|---^1----1---|---^1----1---|---^3----3---|---^1----1----|
|---^2------2-|---^0------0-|---^2------2-|---^2------2--|
|---^2--------|---^2--------|-0-----------|-3------------|
|-0-----------|-3-----------|-------------|--------------|
|-------------|-------------|-------------|--------------|
 been      the ruin       of many a   poor boy (girl) And  
  Am            E             Am            E/H (7)
|---^0--0-----|---^0--0-----|---^0--0-----|---^0--0------|
|---^1----1---|---^0----0---|---^1----1---|---^0----0----|
|---^2------2-|---^1------1-|---^2------2-|---^1------1--|
|---^2--------|---^2--------|---^2--------|---^2---------|
|-0-----------|-------------|-0-----------|-2------------|
|-------------|-0-----------|-------------|--------------|
 And me     oh  Lord     I'm one



Esercizio 12Modifica