Chitarra/Scale pentatoniche

Indice del libro

Albert EinsteinUn po' di teoria: cos'è una scala pentatonicaModifica

La scala pentatonica (o pentafonica), come dice il nome, è una scala composta da 5 note, ovvero 5 gradi (1, 2, 3, 5, 6 se maggiore, 1, 3, 4, 5, 7 se minore) e non contiene semitoni.
Anche se contiene solamente 5 toni, ha la stessa ampiezza di quella maggiore, pur saltandone qualcuno, mancano infatti la 4a e la 7a per la maggiore o la 2a e la 6a per la minore. Le scale pentatoniche infatti, sono solamente delle semplificazioni delle scale maggiori o minori.
La scala pentatonica minore, altro non è che la scala minore naturale eccettuata del 2° e 6° grado.

Pur essendo molto utilizzata nell'ambito blues e rock, viene insegnata ai principianti per la semplicità di apprendimento e di esecuzione, infatti è solitamente il primo tipo di scala con cui si inizia ad improvvisare. Teniamo presente che una cosa che aiuta la memorizzazione di questo tipo di scala è anche il fatto che ci sono 2 tasti da suonare per ogni corda, non di più. La pentatonica minore viene spesso usata anche nel metal, nel rock e nel jazz, mentre la pentatonica maggiore viene più usata nel country, nel pop, nel pop rock, etc.

Possiamo distinguere due diverse scale: scala pentatonica maggiore e scala pentatonica minore.

Icon toolsCome si costruisce una scala pentatonicaModifica

Per semplicità partiamo dalla scala maggiore vedi il capitolo sulle scale per costruire la scala pentatonica.
Le scale pentatoniche hanno 5 forme che si ripetono sulla tastiera sempre uguali per ogni tonalità e la 1a nota della prima posizione determinerà la tonalità della scala pentatonica.

Questa scala ha dei modi:

  • 1° modo, gradi: 1°, 2° maggiore, 3° maggiore, 5° giusto, 6° maggiore.
  • 2° modo, gradi: 1°, 2° maggiore, 4° giusto, 5° giusto, 7° minore.
  • 3° modo, gradi: 1°, 3° minore, 4° giusto, 6° minore, 7° minore.
  • 4° modo, gradi: 1°, 2° maggiore, 4° giusto, 5° giusto, 6° maggiore.
  • 5° modo, gradi: 1°, 3° minore, 4° giusto, 5° giusto, 7° minore.



 

Attenzione!

il 5° modo deriva dalla scala minore naturale eccettuato del 2° e del 6° grado e si tratta della pentatonica minore.



Canzoni in cui si ritrova la pentatonica e quindi con cui ci si può esercitare divertendosi per impararla:

  • Hey Joe - Jimi Hendrix;
  • Purple Haze - Jimi Hendrix;
  • Back In Black - AC/DC;
  • Wish You Were Here - Pink Floyd;
  • Amazing Grace;
  • Money for Nothing - Dire Straits;



La scala pentatonica maggioreModifica

La scala pentatonica maggiore è formata dai seguenti gradi della scala maggiore:

  • I o tonica
  • II maggiore
  • III maggiore
  • V giusta
  • VI


riassumendo gradi scala pentatonica maggiore: 1 2 3 5 6
 
 

Intervalli scala pentatonica maggiore

T T T+S (=un tono e mezzo) T T+S (=un tono e mezzo)
Tono Tono Tono e mezzo Tono Tono e mezzo




Schema riassuntivo della composizione delle scale pentatoniche maggiori
 


Esaminando, per esempio la scala di Do, avremo:

 
Scala di Do maggiore

La relativa scala pentatonica maggiore di Do risulterà quindi: Do, Re, Mi, Sol, La






 

Una curiosità

le prime due "frasi" della celebre "Oh Susanna", sono basate sulla scala pentatonica maggiore.
 



DO maggiore pentatonicaModifica

DO, RE, MI, SOL, LA

 

 


 


Che in tab sarebbe

e|--------------------------------3--5--||
B|--------------------------3--5--------||
G|--------------------2--5--------------||
D|--------------2--5--------------------||
A|--------3--5--------------------------||
E|--3--5--------------------------------||



 


Che in tab sarebbe

e|--------------------------------5--8--||
B|--------------------------5--8--------||
G|--------------------5--7--------------||
D|--------------5--7--------------------||
A|--------5--7--------------------------||
E|--5--8--------------------------------||




 


Che in tab sarebbe

e|------------------------------------8--10--|
B|-----------------------------8--10---------|
G|-----------------------7--9----------------|
D|----------------7--10----------------------|
A|---------7--10-----------------------------|
E|--8--10------------------------------------|



 


Che in tab sarebbe

e|-----------------------------------------10--12--|
B|---------------------------------10--13----------|
G|--------------------------9--12------------------|
D|------------------10--12-------------------------|
A|----------10--12---------------------------------|
E|--10--12-----------------------------------------|



 



RE maggiore pentatonicaModifica

RE, MI, FA#, LA, SI


e|--------------------------------2--5--|
B|--------------------------3--5--------|
G|--------------------2--4--------------|
D|--------------2--4--------------------|
A|--------2--5--------------------------|
E|--2--5--------------------------------|



e|--------------------------------5--7--|
B|--------------------------5--7--------|
G|--------------------4--7--------------|
D|--------------4--7--------------------|
A|--------5--7--------------------------|
E|--5--7--------------------------------|



e|----------------------------------7--10--|
B|---------------------------7--10---------|
G|---------------------7--9----------------|
D|---------------7--9----------------------|
A|---------7--9----------------------------|
E|--7--10----------------------------------|



e|---------------------------------------10--12--|
B|-------------------------------10--12----------|
G|------------------------9--11------------------|
D|-----------------9--12-------------------------|
A|----------9--12--------------------------------|
E|--10--12---------------------------------------|



e|------------------------------------------12--14--|
B|----------------------------------12--15----------|
G|--------------------------11--14------------------|
D|------------------12--14--------------------------|
A|----------12--14----------------------------------|
E|--12--14------------------------------------------|



MI maggiore pentatonicaModifica

MI, FA#, SOL#, SI, DO#


e|--------------------------------2--4--|
B|--------------------------2--5--------|
G|--------------------1--4--------------|
D|--------------2--4--------------------|
A|--------2--4--------------------------|
E|--2--4--------------------------------|



e|--------------------------------4--7--|
B|--------------------------5--7--------|
G|--------------------4--6--------------|
D|--------------4--6--------------------|
A|--------4--7--------------------------|
E|--4--7--------------------------------|



e|--------------------------------7--9--|
B|--------------------------7--9--------|
G|--------------------6--9--------------|
D|--------------6--9--------------------|
A|--------7--9--------------------------|
E|--7--9--------------------------------|



e|-------------------------------------9--12--|
B|------------------------------9--12---------|
G|-----------------------9--11----------------|
D|----------------9--11-----------------------|
A|---------9--11------------------------------|
E|--9--12-------------------------------------|



e|------------------------------------------12--14--|
B|----------------------------------12--14----------|
G|--------------------------11--13------------------|
D|------------------11--14--------------------------|
A|----------11--14----------------------------------|
E|--12--14------------------------------------------|



FA maggiore pentatonicaModifica

FA, SOL, LA, DO, RE

e|--------------------------------1--3--|
B|--------------------------1--3--------|
G|--------------------0--2--------------|
D|--------------0--3--------------------|
A|--------0--3--------------------------|
E|--1--3--------------------------------|



e|--------------------------------3--5--|
B|--------------------------3--6--------|
G|--------------------2--5--------------|
D|--------------3--5--------------------|
A|--------3--5--------------------------|
E|--3--5--------------------------------|



e|--------------------------------5--8--|
B|--------------------------6--8--------|
G|--------------------5--7--------------|
D|--------------5--7--------------------|
A|--------5--8--------------------------|
E|--5--8--------------------------------|



e|-------------------------------------8--10--|
B|------------------------------8--10---------|
G|-----------------------7--10----------------|
D|----------------7--10-----------------------|
A|---------8--10------------------------------|
E|--8--10-------------------------------------|



e|------------------------------------------10--13--|
B|----------------------------------10--13----------|
G|--------------------------10--12------------------|
D|------------------10--12--------------------------|
A|----------10--12----------------------------------|
E|--10--13------------------------------------------|




 

SOLb maggiore pentatonicaModifica

 

SOL maggiore pentatonicaModifica

SOL, LA, SI, RE, MI

e|--------------------------------0--3--|
B|--------------------------0--3--------|
G|--------------------0--2--------------|
D|--------------0--2--------------------|
A|--------0--2--------------------------|
E|--0--3--------------------------------|



e|--------------------------------3--5--|
B|--------------------------3--5--------|
G|--------------------2--4--------------|
D|--------------2--5--------------------|
A|--------2--5--------------------------|
E|--3--5--------------------------------|



e|--------------------------------5--7--|
B|--------------------------5--8--------|
G|--------------------4--7--------------|
D|--------------5--7--------------------|
A|--------5--7--------------------------|
E|--5--7--------------------------------|



e|-----------------------------------7--10--|
B|----------------------------8--10---------|
G|----------------------7--9----------------|
D|----------------7--9----------------------|
A|---------7--10----------------------------|
E|--7--10-----------------------------------|



e|----------------------------------------10--12--|
B|--------------------------------10--12----------|
G|-------------------------9--12------------------|
D|------------------9--12-------------------------|
A|----------10--12--------------------------------|
E|--10--12----------------------------------------|



LA maggiore pentatonicaModifica

LA, SI, DO#, MI, FA#

e|--------------------------------2--5--|
B|--------------------------2--5--------|
G|--------------------2--4--------------|
D|--------------2--4--------------------|
A|--------2--4--------------------------|
E|--2--5--------------------------------|




 


e|---------------------------------7--9--|
B|--------------------------7--10--------|
G|--------------------6--9---------------|
D|--------------7--9---------------------|
A|--------7--9---------------------------|
E|--7--9---------------------------------|



e|--------------------------------------9--12--|
B|------------------------------10--12---------|
G|-----------------------9--11-----------------|
D|----------------9--11------------------------|
A|---------9--12-------------------------------|
E|--9--12--------------------------------------|



e|------------------------------------------12--14--|
B|----------------------------------12--14----------|
G|--------------------------11--14------------------|
D|------------------11--14--------------------------|
A|----------12--14----------------------------------|
E|--12--14------------------------------------------|



 

SI maggiore pentatonicaModifica

SI, DO#, RE#, FA#, SOL#

e|-----------------------------------------------|
B|-----------------------------------------------|
G|-----------------1--3--4--3--1-----------------|
D|--------1--2--4-----------------4--2--1--------|
A|--2--4-----------------------------------4--2--|
E|-----------------------------------------------|



e|-----------------4--6--7--6--4-----------------|
B|--------4--5--7-----------------7--5--4--------|
G|--4--6-----------------------------------6--4--|
D|-----------------------------------------------|
A|-----------------------------------------------|
E|-----------------------------------------------|



e|-----------------------------------------6--7--|
B|-----------------------------------7--9--------|
G|--------------------------6--8--9--------------|
D|-----------------6--8--9-----------------------|
A|--------6--7--9--------------------------------|
E|--7--9-----------------------------------------|



e|------------------------------------------------------|
B|-------------------9--11--12--11--9-------------------|
G|---------8--9--11--------------------11--9--8---------|
D|--9--11----------------------------------------11--9--|
A|------------------------------------------------------|
E|------------------------------------------------------|



La scala pentatonica minoreModifica

La scala pentatonica minore, in pratica è una scala minore naturale eccettuata del 2° e del 6° grado ed è quindi formata dai seguenti gradi della scala maggiore:

  • I o tonica
  • IIIb (3a minore)
  • IV;
  • V;
  • VIIb (7a minore)


riassumendo, gradi della scala pentatonica minore: 1 b3 4 5 b7

 

Intervalli scala pentatonica minore

T+S (=un tono e mezzo) TT T+S (=un tono e mezzo)
Tono e mezzo Tono Tono Tono e mezzo


 

La relativa scala pentatonica minore risulterà quindi: Do, Mib, Fa, Sol, Sib

DO minore pentatonicaModifica

 

DO MIb FA SOL SIb DO



MI minore pentatonicaModifica

MI, SOL, LA, SI, RE

 

 


RE minore pentatonicaModifica

RE, FA, SOL, LA, DO

 

LA minore pentatonicaModifica

 

LA, DO, RE, MI, SOL

 
 
 
 
 

Scala sulla corda di MI
 


     
 

 
 




SOL minore pentatonicaModifica

SOL, LA#, DO, RE, FA

I box pentatoniciModifica

La scala pentatonica ha 5 tipologie di box pentatonici, ovvero 5 forme specifiche che si susseguono sulla tastiera della chitarra che ci aiutano a memorizzare le scale. Si tratta di 2 note per corda per ogni box.
 
               


 

Altre scale pentatonicheModifica