Chitarra/Scale modali

Indice del libro

Che cosa sono le scale modali e come ricordarsi la sequenza dei modiModifica

Per prima cosa diamo una spiegazione di che cosa sia un "modo", ovvero, un modo in musica è un susseguirsi di intervalli proveniente da una determinata scala che varia al variare della nota iniziale.

Quando si parla di scale modali, si parla appunto di quelle scale che vengono create a partire da ogni singola nota della scala fondamentale della tonalità, cioè quella maggiore. Quindi i modi, le scale modali si trovano tutte nella scala maggiore, o quanto meno, partono da lì: sono 7 modi differenti di suonare la scala maggiore. Le scale che appartengono ad una tonalità si chiamano appunto modi e i nomi dei modi sono presi da nomi usati nell'antica Grecia.

Prenderemo in prestito dai nostri amici anglofoni una frasetta per poterci ricordare l'esatta sequenza:

  • Ionian: Ionico - I
  • Dorian: Dorico - Don't
  • Phrygian: Frigio - Play
  • Lydian: Lidio - Like
  • Myxolydian: Misolidio: - My
  • Aeolian: Eolio: - Aunt
  • Locrian: Locrio: - Lucy


 

Spiegazione dei modiModifica

NOTA DI PARTENZA MODO NOTE NELLA SCALA GRADI GRADO DI PARTENZA INTERVALLI ALTERAZIONI
DO Ionico DO RE MI FA SOL LA SI DO 1ª 2ªM 3ªM 4ªg 5ªg 6ªM 7ªM I T-T-s-T-T-T-s nessuna
RE Dorico RE MI FA SOL LA SI DO RE 1ª 2ªM 3ªm 4ªg 5ªg 6ªM 7ªm II T-s-T-T-T-s-T 2 bemolli
MI Frigio MI FA SOL LA SI DO RE MI 1ª 2ªm 3ªm 4ªg 5ªg 6ªm 7ªm III s-T-T-T-s-T-T 4 bemolli
FA Lidio FA SOL LA SI DO RE MI FA 1ª 2ªM 3ªM 4ªA 5ªg 6ªM 7ªM IV T-T-T-s-T-T-s 1 diesis
SOL Misolidio SOL LA SI DO RE MI FA SOL 1ª 2ªM 3ªM 4ªg 5ªg 6ªM 7ªm V T-T-s-T-T-s-T 1 bemolle
LA Eolio LA SI DO RE MI FA SOL LA 1ª 2ªM 3ªm 4ªg 5ªg 6ªm 7ªm VI T-s-T-T-s-T-T 3 bemolli
SI Locrio SI DO RE MI FA SOL LA SI 1ª 2ªm 3ªm 4ªg 5ªd 6ªm 7ªm VII s-T-T-s-T-T-T 5 bemolli


  • Il modo Ionico corrisponde alla scala maggiore in prima posizione, praticamente va da DO al DO dell'ottava successiva. Essa inizia dalla tonica ed è un modo maggiore
  • Il modo Dorico corrisponde ad una scala minore naturale col 6° grado alzato, e va da RE al RE dell'ottava successiva. Inizia dalla sopratonica ed è un modo minore
  • Il modo Frigio corrisponde ad una scala minore naturale col 2° grado abbassato, e va da MI al MI dell'ottava successiva. Inizia dalla modale ed è un modo minore
  • Il modo Lidio corrisponde ad una scala maggiore col 4° grado alzato di mezzo tono, e va da FA al FA dell'ottava successiva. Inizia dalla sottodominante ed è un modo maggiore.
  • Il modo Misolidio corrisponde ad una scala maggiore col 7° grado abbassato di mezzo tono, va dal SOL al SOL dell'ottava successiva e viene chiamato modo Dominante, inizia infatti dalla dominante ed è un modo maggiore.
  • Il modo Eolio corrisponde alla scala minore (anzidetta scala minore naturale ) e va da LA al LA dell'ottava successiva. Inizia dalla sopradominante ed è un modo minore.
  • Il modo Locrio corrisponde ad una scala minore col 2° e 5° grado abbassati e va da SI al SI dell'ottava successiva. Inizia dalla sensibile ed è un modo diminuito.

 
 
 


DO modo ionico (cioè scala maggiore di do)
 
C	D	E	F	G	A	B
1	2	3	4	5	6	7

Formula: 1 2 3 4 5 6 7
Accordo correlato: DOmaj7
Utilizzo: con accordi maggiori
Intervalli: T T S T T T S

	
RE modo dorico
 
D	E	F	G	A	B	C
1	2	b3	4	5	6	b7

Formula: 1 2 b3 4 5 6 b7
Accordo correlato: REm7
Utilizzo : con accordi minori
Intervalli: T S T T T S T


MI modo frigio

MI	FA	G	A	B	C	D
1	2b	3b	4	5	6b	7b

Formula: 1 b2 b3 4 5 b6 b7
Accordo correlato: MIm7
Utilizzo: con accordi minori (spesso usato nel flamenco)
Intervalli: S T T T S T T


FA modo lidio
F G A B C D E
Formula: 1 2 3 #4 5 6 7 8
Accordo correlato: FAmaj7
Utilizzo: con accordi maggiori
Intervalli: T T T S T T S
 

Sol modo misolidio
G A B C D E F
Formula : 1 2 3 4 5 6 b7
Accordo correlato: SOL7
Utilizzo : con accordi dominanti (spesso usato nel jazz)
Intervalli:  T-T-s-T-T-s-T 

LA modo eolio (cioè scala minore naturale)
A B C D E F G
Formula : 1 2 b3 4 5 b6 b7
Accordo correlato : LAm7
Utilizzo : con accordi minori
Intervalli: T s T T s T T

SI modo locrio
B C D E F G A	
Formula : 1 b2 b3 4 b5 b6 b7
Accordo correlato : SIm7b5
Utilizzo :con accordi diminuiti
Intervalli:  s T T s T T T 


       

 


Scale modali pentatonicheModifica

MODO GRADI
Pentatonica ionica 1 - 2a magg - 3a magg - 4a - 5a - 6a magg - 7a magg
Pentatonica dorica 1 - 3a min - 4a - 5a - 6a magg - 7a min
Pentatonica frigia 1 - 2a min - 3a min - 4a - 5a - 7a min
Pentatonica eolia 1 - 2a magg - 3a min - 4a - 5a - 6a min - 7a min
Pentatonica lidia 1 - 2a magg - 3a magg - 4a# - 5a - 6a magg
Pentatonica misolidia 1 - 2a magg - 3a magg - 5a - 6a magg - 7a min



Altre scale modaliModifica

  • Armonica minore 1 2 b3 4 5 b6 7 -
  • Alterata Locria 1 b2 b3 4 b5 6 b7 - seconda modalità della scala minore armonica
  • Alterata Ionica 1 2 3 4 #5 6 7 - terza modalità della scala minore armonica
  • Alterata dorica 1 2 b3 #4 5 6 b7 - quarta modalità della scala minore armonica
  • Alterata frigia 1 b2 3 4 5 b6 b7 - quinta modalità della scala minore armonica
  • Alterata lidia 1 #2 3 #4 5 6 7 - sesta modalità della scala minore armonica
  • Alterata misolidia 1 b2 b3 b4 b5 b6 bb7 - settima modalità della scala minore armonica



Un'annotazione storica: i modi ecclesiasticiModifica

I modi ecclesiastici sono appunto i modi gregoriani (dai canti gregoriani e quindi dal Papa Gregorio che si svilupparono dal Medioevo al Rinascimento), sono appunto gli antenati delle nostre scale odierne. Sono 8 modi (octoechos) e si distinguono in modi autentici: dorico - I modo, frigio - III modo, lidio - V modo, misolidio - VII modo (pur differenti da quelli odierni, intervallati diversamente) e modi plagali (si aggiunge il prefisso ipo per indicare che non si tratta appunto del modo autentico): ipodorico - II modo, ipofrigio - IV modo, ipolidio - VI modo e ipomisolidio - VIII modo. Secondo Guido d'Arezzo: "Il primo è grave, il secondo triste, il terzo mistico, il quarto armonioso, il quinto allegro, il sesto devoto, il settimo angelico e l'ottavo perfetto." Ogni modo ha una nota dominante (nota appunto che domina) e una finale (finalis - nota su cui finisce) e ogni modo plagale è di 4 note più basso rispetto al modo autentico a cui si riferisce.

 
 
 

Modo ionicoModifica

DO ionicoModifica

 

   

 e--------------------------------------------8-------------------------||
 B-------------------------------------10-12----------------------------||
 G----------------------------9-10-12-----------------------------------||
 D-------------------9-10-12--------------------------------------------||
 A----------8-10-12-----------------------------------------------------||
 E--8-10-12-------------------------------------------------------------||
 e----------------------------------------5-7-8-------------------------||
 B---------------------------------5-6-8--------------------------------||
 G-------------------------4-5-7----------------------------------------||
 D-----------------3-5-7------------------------------------------------||
 A---------3-5-7--------------------------------------------------------||
 E----------------------------------------------------------------------||




SOL ionicoModifica

  --------------------------------------------------------------------------12--14--15- ||
  ---------------------------------------------------7--8--10--0--13--15------------ ||
  -----------------------------0--------------7--9------------------------------------ ||
  -----------------------2--4----7--9--10------------------------------------------ ||
  ------0---2---3---5------------------------------------------------------------------ ||
  --3--------------------------------------------------------------------------------||

Modo doricoModifica

DO doricoModifica

 



RE doricoModifica

 


   

 e-----------------------------------------------10---------------------||
 B-----------------------------------------12-13------------------------||
 G-------------------------------10-12-14-------------------------------||
 D---------------------10-12-14-----------------------------------------||
 A-----------10-12-14---------------------------------------------------||
 E--10-12-13------------------------------------------------------------||

 e-----------------------------------------7-8-10-----------------------||
 B---------------------------------6-8-10-------------------------------||
 G-------------------------5-7-9----------------------------------------||
 D-----------------5-7-9------------------------------------------------||
 A---------5-7-8--------------------------------------------------------||
 E----------------------------------------------------------------------||



Modo FrigioModifica

DO FrigioModifica

 


MI FrigioModifica

 

   

 e-----------------------------------------------12---------------------|
 B-----------------------------------------13-15------------------------|
 G-------------------------------12-14-16-------------------------------|
 D---------------------12-14-15-----------------------------------------|
 A-----------12-14-15---------------------------------------------------|
 E--12-13-15------------------------------------------------------------|

 e------------------------------------------8-10-12---------------------|
 B---------------------------------8-10-12------------------------------|
 G-------------------------7-9-10---------------------------------------|
 D-----------------7-9-10-----------------------------------------------|
 A---------7-8-10-------------------------------------------------------|
 E----------------------------------------------------------------------|



Modo LidioModifica

Differenza tra fa lidio e fa maggiore.

 

DO LidioModifica

 


FA LidioModifica

 e--------------------------------------1-------------------------------|
 B---------------------------------3-5----------------------------------|
 G-------------------------2-4-5----------------------------------------|
 D-----------------2-3-5------------------------------------------------|
 A---------2-3-5--------------------------------------------------------|
 E--1-3-5---------------------------------------------------------------|

 e-----------------------------------------------10-12-13---------------|
 B-------------------------------------10-12-13-------------------------|
 G----------------------------9-10-12-----------------------------------|
 D-------------------9-10-12--------------------------------------------|
 A----------8-10-12-----------------------------------------------------|
 E----------------------------------------------------------------------|



Modo MisolidioModifica

DO MisolidioModifica

 

SOL MisolidioModifica

   

 e:--------------------------------------3-------------------------------|
 B:--------------------------------3-5-6----------------------------------|
 G:-------------------------4-5-7----------------------------------------|
 D:-----------------3-5-7------------------------------------------------|
 A:---------3-5-7--------------------------------------------------------|
 E:--3-5-7---------------------------------------------------------------|

 e:--------------------------------------------------12-13-15------------|
 B:-----------------------------------------12-13-15---------------------|
 G:-------------------------------10-12-14-------------------------------|
 D:---------------------10-12-14-----------------------------------------|
 A:-----------10-12-14---------------------------------------------------|
 E:----------------------------------------------------------------------|



Modo eolioModifica

DO eolioModifica

 


LA eolioModifica

 

   

 e:--------------------------------------5-------------------------------|
 B:---------------------------------6-8----------------------------------|
 G:-------------------------5-7-9----------------------------------------|
 D:-----------------5-7-9------------------------------------------------|
 A:---------5-7-8--------------------------------------------------------|
 E:--5-7-8---------------------------------------------------------------|

 e:---------------------------------------------------13-15-17-----------|
 B:-----------------------------------------13-15-17---------------------|
 G:-------------------------------12-14-16-------------------------------|
 D:---------------------12-14-15-----------------------------------------|
 A:-----------12-14-15---------------------------------------------------|
 E:----------------------------------------------------------------------|



Modo LocrioModifica

SI LocrioModifica

   


 e:--------------------------------------7-------------------------------|
 B:---------------------------------8-10---------------------------------|
 G:-------------------------7-9-10---------------------------------------|
 D:-----------------7-9-10-----------------------------------------------|
 A:---------7-8-10-------------------------------------------------------|
 E:--7-8-10--------------------------------------------------------------|


 e:---------------------------------------3-5-7--------------------------|
 B:---------------------------------3-5-6--------------------------------|
 G:-------------------------2-4-5----------------------------------------|
 D:-----------------2-3-5------------------------------------------------|
 A:---------2-3-5--------------------------------------------------------|
 E:----------------------------------------------------------------------|



Altre formeModifica